Ashes In My Drink

Track info & Remix navigation

United States
Guitar:
PeterVeillon934 jams
Remix
step I
GOTO
United States
Bass:
Wikimark1165 jams
England
Drums:
mpointon500 jams
Remix
step III
playing
Brasil
Bass:
k956 jams
no additional instruments available so far
post your remix!
Thumbs:
+ 1
Shared:
05/15/2016
Listened:
270
Downloads:
1
Remixes:
0
----------------------------------
----------------------------------
--7-5-5h7p5-|---10-10-9-7h9p7
-0-0-0----------------------------

----------------------------------
----------10-9-7-------
-7-7-7-7--------10-8---
-----------------------


-----------7h9p5---------
----------------------------
7h9p7-5h7p5-----5-3-2-----
---------------------0~--

----9999---7777-------------------------------
--------------------------------------
-7777---7777---10101010-7777-12121212-
--------------------------------------

final


-------------------------
----------10-----10.9----
--7.-9.-7---7.-9.----7.8-
-------------------------

loading comments...
wikiloops online jamsessions are brought to you with friendly support by:
ladybass from Spain

"Gracias a todos por ayudarme a ser mejor músico =) Thanks you all for helping me to be a better muscician"

wikiloops.com uses Cookies to provide you the best possible browsing experience.
Read more in our data privacy policy.